flojos de pantalon

Aquí tienes la tablatura; pincha en "Leer más...".

INTRO

e|-------------------------------------------|
B|-------------------------------------------|
G|-------------------------------------------|
D|-9----9-----9---9---9----------------------|x2
A|-7----7-----7---6---7----------------------|
E|--0-0---0-0---0---0---0--9--0--7--0--------|

e|-------------------------------------------|
B|-------------------------------------------|
G|-------------------------------------------|
D|-------------------------------------------|
A|--------6---9---------------4---7----------|
E|--7-7-7---7-----------5-5-5---5------------|




e|-------------------------------------------|
B|-------------------------------------------|
G|-------------------------------------------|
D|-------------------------------------------|
A|--2-----2-----2----------------------------|
E|--0-0-0-0-0-0-0-0-0-3L2L0------------------|

e|-------------------------------------------|
B|-------------------------------------------|
G|-------------------------------------------|
D|-------------------------------------------|
A|-----6-6--6-9-------4-4--4-7---------------|
E|--\7-7-7--7-7----\5-5-5--5-5---------------|

e|-------------------------------------------|
B|-------------------------------------------|
G|-------------------------------------------|
D|-------------------------------------------|
A|- -2-----2-----2-----2-----2-----2---------|
E|---0-0-0-0-0-0-0-0-0-0-0-0-0-0-0-0-0-0-----|


TODO X2




L= ligado

\= Slide


E5 ......... B5 ..........C#5 ..A5.......... C#5
Surje la escena en un salón, niñas en promoción,
A5 ................ C#5 ....... B5
momias poniendo precio, ambigüedad.
...E5 .......B5.............. C#5
Alguien va presumiendo discreción,
A5 ...........C#5 .... A5 ... C#5..... B5
Flojos de pantalón, líderes del diseño novedad.


ESTRIBILLO

........A5 .... B5 ........... C#5
Son la musa que inspira la ambición
A5........... C#5 ...... E5 D#5 E5 B5
Sueño de libertad,
A5 .... B5 ...... C#5
noches al pie del cañón,
A5 .......... C#5 ....... E5 D#5 E5 B5
fuerza de voluntad.


INTRO (2 Veces)

E5..... B5 ....C#5 ....A5..... C#5
Es una tribu de ficción, síndrome de bufón
A5.......... C#5 ....... B5
héroes de novelista berbiquí.
.......E5 ...... B5...... C#5 . A5........ C#5
Provocando desprecio y reacción, lucen su condición
A5 ........ C#5 ..............B5
dueños del desparpajo, frenesí.


ESTRIBILLO

E5*...................................... G#5

E5* ..................... G#5 .............. E5* ........... G#5
Y tu mientras... asumiendo.... rebuscando.... renegando de tu tiempo

SOLO

E||------------------|----------------------------------|
B||------------------|----------------------------------|
G||------------------|--9~------8--9-11-----------------|
D||------------------|-------------------9-9------------|
A||------------------|-------------------------12---11~-|
E||------------------|----------------------------------|

---------------------------------------------|
---------------------------------------------|
---------------------------------------------|
---------------------------------------------|
----------------11-12p-11----11---11g12--11~-|
----------12-14-----------14-----------------|

-----------------------------------|
-----------------------------------|
-----------11b---11p-9-11b---11p-9-|
-----------------------------------|
-----------------------------------|
-----------------------------------|

-------------------------------------|------------------------12---|
-------------------------------------|--------------9~------9----9-|
--11~-----------9-9g11~--9-9~--8--9h-|--8~---9--11-----------------|
-----------9-11----------------------|-----------------------------|
-------------------------------------|-----------------------------|
-------------------------------------|-----------------------------|

--11g12----12--11--9~------9-11-12-|
---------9-------------------------|
-----------------------------------|
-----------------------------------|
-----------------------------------|
-----------------------------------|

--14br---12-14br--12-14~------12-11--|
-------------------------------------|
-------------------------------------|
-------------------------------------|
-------------------------------------|
-------------------------------------|

--11h-12p-11-9--12~---11h-12p-11-9--------|
------------------------------------12~---|
------------------------------------------|
------------------------------------------|
------------------------------------------|
------------------------------------------|

--------------------------------------------------|
--9~----L------9-9h-10p-9----9h-10p-9----9h-10p-9-|
----------9-11------------11----------11----------|
--------------------------------------------------|
--------------------------------------------------|
--------------------------------------------------|

-----------------------------------------------|
-----9~---------9-9h-10p-9----9h-10p-9---------|
--11-------9-11------------11----------11-9-8~-|
-----------------------------------------------|
-----------------------------------------------|
-----------------------------------------------|

--------------------------------|
--------------------------------|
-----------------------------9h-|
-----------6-7p-6-9p-7-11p-9----|
--------------------------------|
--------------------------------|

---------------------------------------|
---------------------------------------|
--8-11-9-8-----------------------------|
-----------11-9-7-9-9br-7-7p-6-6-7-6---|
-------------------------------------9-|
---------------------------------------|

----------------------------------|
----------------------------------|
----------------------------------|
--6-----------------------6---7-6-|
----7-9-6-7---6-----6-7-9---9-----|
------------9---7-9---------------|

--------------------------------------------|
--------------------------------------------|
--------------------------------------------|
--6h-7p-6---6h-7p-6---6-----------7-6h-7p-6-|
----------9---------9---7-9--7-6------------|
--------------------------------------------|

------------------------------|
------------------------10--9-|
--6----8--6-9--8--11-9--------|
-----9------------------------|
------------------------------|
------------------------------|

------------12-11-12--11-12h-14p-12-11--12h-14h-|
--9~------9-------------------------------------|
------------------------------------------------|
------------------------------------------------|
------------------------------------------------|
------------------------------------------------|

--12-11--12--11--12--14--14br----12-|
------------------------------------|
------------------------------------|
------------------------------------|
------------------------------------|
------------------------------------|

--14~--------11h-12h-14--12-12--L-11h-12p-11-|
---------------------------------------------|
---------------------------------------------|
---------------------------------------------|
---------------------------------------------|
---------------------------------------------|

----------------------------------------------------|
-----14--12--10--9h-10p-9----9-9h-10p-9----9h-10p-9-|
--------------------------11------------11----------|
----------------------------------------------------|
----------------------------------------------------|
----------------------------------------------------|

-----------------------------------------------------------|
-----9h-10p-9----9h-10p-9----9h-10p-9----9~------9h-10h-12-|
--11----------11----------11----------11-------------------|
-----------------------------------------------------------|
-----------------------------------------------------------|
-----------------------------------------------------------|

-------------------------------------------------------|
--10p-9h-10-9----9-------------------------------------|
--------------11---11p-9h-11p-9p-8h-9p-8----8~---------|
-----------------------------------------11------------|
-------------------------------------------------------|
-------------------------------------------------------|

-------------------||
-------------------||
-------------------||
--2----------------||
--2----------------||
--0----------------||


h - Ligado ascendente
p - Ligado descendente
b - bend
~ - vibrato

2 Responses:

Anónimo dijo...

http://www.buscadores.tk
http://www.myspace.com/tarramonta

javier cano dijo...

GRACIAS

Publicar un comentario

Deja tu nota

 
ir arriba