Segundo movimiento: Lo de fuera (Parte 1)

Título: Segundo movimiento: Lo de fuera
Autor: Iñaki Uoho / Roberto Iniesta
Disco: Ley Innata
Grupo: Extremoduro


TABLATURA:



------------
INTRO VIOLIN
------------

e|-------------------------------------------|
B|-------------------------------------------|
G|---------------4------------4------------4-|
D|-5-------4-5-7--------4-5-7---4----4-5-7---|
A|---7---7---------7--7------------7---------|
E|-------------------------------------------|
x2
e|-------------------------------------------|
B|-------------------------------------------|
G|-------------------------------------------|
D|-7-7-5-5-4---------------------------------|
A|-----------7-5-----------------------------|
E|-------------------------------------------|

-----------------------------------------------------

INTRO GUITARRA

e|-------------------------------------------|
B|-------------------------------------------|
G|-------------------------------------------|
D|-------------------------------------------|
A|------3-3-----3-3-----3-3-----3-3----------|
E|--5-5-5-5-5-5-5-5-5-5-5-5-5-5-5-5----------|

e|-------------------------------------------|
B|-------------------------------------------|
G|-------------------------------------------|
D|------5-5-----5-5-----5-5-----5-5----------|
A|--7-7-7-7-7-7-7-7-7-7-7-7-7-7-7-7----------|
E|-------------------------------------------|
X2
e|-------------------------------------------|
B|-------------------------------------------|
G|-------------------------------------------|
D|-------------------------------------------|
A|------9-9-----9-9-----9-9-----9-9--10------|
E|--7-7-7-7-7-7-7-7-7-7-7-7-7-7-7-7---8------|

e|-------------------------------------------|
B|-------------------------------------------|
G|-------------------------------------------|
D|--7--------9--------10---------------------|
A|-------------------------------------------|
E|-------------------------------------------|

------------------------------------------------------
RIFF1
-----
Se acabó.

El odio me royó la razón,

Con mi época estoy comprometido.

Y el amor

se fue volando por el balcón

Adonde no tuviera enemigos



e|-------------------------------------------|
B|-------------------------------0-----------|
G|--------------0----------0-----------------|
D|--------0------------5-----5---------------|
A|----3-----3--------7---7-----7-------------|
E|--5---5-----5------------------------------|
X2
e|-------------------------------------------|
B|-------------------------------------------|
G|-------------------------------------------|
D|--------9-----10---------------------------|
A|----9-----9---10---------------------------|
E|--7---7-----7--8---8---7-------------------|

--------------------------------------------------------


.........Lam .................... Em
Y ahora estoy en guerra con mi alrededor.
...........................Sim... Do5
No me hace falta ningún motivo;
..........Lam ....................Em
Y es que soy maestro de la contradicción
............................Sim ...Do5
Y experto de romper lo prohibido


Lam

D|-----|
A|--3--|
E|--5--|

Em

D|--5--|
A|--7--|
E|-----|


Sim
D|-----|
A|--5--|
E|--7--|

--------------------------------------------------------

GUITARRA CON DISTORSION


e|-------------------------------------------|
B|------------------------------5-7-7\8--\7--|
G|------------------4-4-5-5-7-7---------5---4|
D|------4-4-5-5-7-7--------------------------|
A|--7-7--------------------------------------|
E|-------------------------------------------|


e|-------------------------------------------|
B|------------------------------5-7-7\8------|
G|------------------4-4-5-5-7-7--------------|
D|------4-4-5-5-7-7--------------------------|
A|--7-7--------------------------------------|
E|-------------------------------------------|



e|------8-------5----------------------------|
B|--8b8---8L6L8------------------------------|
G|-------------------------------------------|
D|-------------------------------------------|
A|-------------------------------------------|
E|-------------------------------------------|

e|-------------------------------------------|
B|------------------------------5-7-7\8--\7--|
G|------------------4-4-5-5-7-7---------5---4|
D|------4-4-5-5-7-7--------------------------|
A|--7-7--------------------------------------|
E|-------------------------------------------|



e|--------------------------------------7-5--|
B|------------------------------5-7-7\8------|
G|------------------4-4-5-5-7-7--------------|
D|------4-4-5-5-7-7--------------------------|
A|--7-7--------------------------------------|
E|-------------------------------------------|



---------------------------------------------------------




E5*........B5.............A5....B5........E5
Y por eso los chiquillos ya se acercan a mi,
B5.............A5..B5
Que intento ser feliz.
E5*...............B5.............A5.....B5.......A5
Y desde entonces de esta cárcel no me dejan salir,
--------------------------------
Ni tengo adonde huir

Voy hacer un butron

e|----7---9---7---5---7---9--|
B|--7---7---7---7---7---7----|

--------------------------------

...............A5...G5..F#5
Que saque la cabeza fuera.







E5*-B5-C5-D5
Sigo preso,


D|---5--2V---2-4-5-------------|
A|-----------------2V----------|
E|-----------------------------|


E5*.......B5...........C5........D5.......E5*.D5.E5*...B5.D5
Pero ahora el viento corre alrededor
C5................B5
Por mis pecados, sigo preso,



e|-------------------------------------------|
B|-------------------------------------------|
G|------------------4---4-5-7-4V-------------|
D|----4---4-5-4-5-7---7----------------------|
A|--7---7------------------------------------|
E|-------------------------------------------|




E5*-B5-C5-D5
Carne y hueso.


D|---5--2V---2-4-5-------------|
A|-----------------2V----------|
E|-----------------------------|

E5*.......B5...........C5........D5.......E5*.D5.E5*...B5.D5
Si muere de hambre el mundo alrededor,
C5...................B5
Tú y yo, total, de carne y hueso.

e|-------------------------------------------|
B|------------------------------5-7-7\8--\7--|
G|------------------4-4-5-5-7-7---------5---4|
D|------4-4-5-5-7-7--------------------------|
A|--7-7--------------------------------------|
E|-------------------------------------------|


e|-------------------------------------------|
B|------------------------------5-7-7\8------|
G|------------------4-4-5-5-7-7--------------|
D|------4-4-5-5-7-7--------------------------|
A|--7-7--------------------------------------|
E|-------------------------------------------|


E5*........B5.............A5....B5........E5
Por dinero, los maderos, ¡ay!, van detrás de mi,
B5.............A5..B5
Que intento ser feliz

E5*........B5.............A5....B5........E5
Y abocado, a los tejados, me he mudado a vivir,
--------------------------------
Por desobedecer,

Por ver el sol salir,

e|----7---9---7---5---7---9--|
B|--7---7---7---7---7---7----|

--------------------------------


................A5...G5..F#5
Por sacar la cabeza fuera.



E5*-B5-C5-D5
Sigo preso,


D|---5--2V---2-4-5-------------|
A|-----------------2V----------|
E|-----------------------------|


E5*.......B5...........C5........D5.......E5*.D5.E5*...B5.D5
Pero ahora el viento corre alrededor
C5................B5
Por mis pecados, sigo preso,



e|-------------------------------------------|
B|-------------------------------------------|
G|------------------4---4-5-7-4V-------------|
D|----4---4-5-4-5-7---7----------------------|
A|--7---7------------------------------------|
E|-------------------------------------------|




E5*-B5-C5-D5
Carne y hueso.


D|---5--2V---2-4-5-------------|
A|-----------------2V----------|
E|-----------------------------|

E5*.......B5...........C5........D5.......E5*.D5.E5*...B5.D5
Si muere de hambre el mundo alrededor,
C5....................B5
Tú y yo, total, de carne y hueso.

e|-------------------------------------------|
B|------------------------------5-7-7\8--\7--|
G|------------------4-4-5-5-7-7---------5---4|
D|------4-4-5-5-7-7--------------------------|
A|--7-7--------------------------------------|
E|-------------------------------------------|


e|-------------------------------------------|
B|------------------------------5-7-7\8------|
G|------------------4-4-5-5-7-7--------------|
D|------4-4-5-5-7-7--------------------------|
A|--7-7--------------------------------------|
E|-------------------------------------------|

e|-------------------------------------------|
B|------------------------------5-7-7\8--\7--|
G|------------------4-4-5-5-7-7---------5---4|
D|------4-4-5-5-7-7--------------------------|
A|--7-7--------------------------------------|
E|-------------------------------------------|

e|--------------------------------------7-5--|
B|------------------------------5-7-7\8------|
G|------------------4-4-5-5-7-7--------------|
D|------4-4-5-5-7-7--------------------------|
A|--7-7--------------------------------------|
E|-------------------------------------------|

----------------------------------------------

..............G5..E5*..B5
Necesito saber,
C5............G5..E5*..B5
Dime tu nombre,
C5.................G5..E5*..B5
De dónde sale el sol
C5.................G5..E5*..B5
Y de qué se esconde.

GUITARRA 2 mientras suena la primera
e|-------------------------------------------|
B|-------------------------------------------|
G|---14B14-12-14-16-------14B14-12-14-16-----|
D|------------------12-------------------12--|
A|-------------------------------------------|
E|-------------------------------------------|


e|-------------------------------------------|
B|-------------------------------------------|
G|-------------------------------------------|
D|---14B14-12-14-12---16-14------------------|
A|-------------------------------------------|
E|-------------------------------------------|

-----------------------------------------------

G5**..................E5**........................B5
Si miro alrededor, no puedo comprender, me da pereza.

e|------------7-------|
B|--7L8-9-8-7---------|

G5**..................E5**..........................B5
Si hay algún escalón pa´ dar un tropezón, voy de cabeza.

e|------------7-------|
B|--7L8-9-8-7---------|


G5**...................E5**...........................B5
Tú y yo en la habitación para que vuelva Amor: naturaleza.


e|------------7-------|
B|--7L8-9-8-7---------|


G5**.................E5**.........................B5
Hay un televisor en medio del salón. No me interesa.


e|--------------------|
B|--7L8-9-------------|

--------------------------------------------------------

Vente a la sombra, amor, que yo te espero;

Que tengo el corazón aquí con bien de hielo.

Vente a la sombra, vente amor, que te espero;

Que tengo ya el cerezo en flor dentro del cuerpo.





e|-------------------------------------------|
B|-------------------------------------------|
G|-------------------------------------5-----|
D|-------------------------------------5-----| X4
A|--------------------------2--2-3-5-2-3-----|
E|--3--3-5-6-3-0----0-3-5-3------------------|

------------------------------------------------------------



G5**

e|----|
B|-8--|
G|-7--|
D|-5--|
A|----|
E|----|




E5**

e|----|
B|-5--|
G|-4--|
D|-2--|
A|----|
E|----|





E5*

e|----|
B|----|
G|-9--|
D|-9--|
A|-7--|
E|----|



b= bending
L= ligado
\= Slide
V= vibrato





9 Responses:

Anónimo dijo...

Que passsssssssote tio, muy bueno, eres un fiera. Es la primera vez que veo un Lam, Em, y Sim tocados con solo dos cuerdas, supongo que seran acordes para electrica. Yo toco un poco la acustica y tanta cejilla me mata.

Tomaguitarra dijo...

Estos acordes se usan para el tipo de guitarra que quieras, pero en electrica se usa mas. Creo que estos acordes son terceras, si a la nota tónica, por ejemplo Do, le sumas 1 tono y medio, Re#, con esas dos notas a la vez aras un acorde menor puesto que las terceras determinas si es mayor o menor.

Rem= Re+Fa

Mim= Mi+Sol

Fa= Fa+Sol#

Y asi sucesivamente. Gracias por tu comentario.

Anónimo dijo...

Que bueno tio, me pondre a practicarla pero a ti te sale genial. A ver si te animas y pones otras de La Ley Innata.

Un saludo crack!! ;)

Tomaguitarra! dijo...

Gracias! En cuanto tenga tiempo a ver si cuelgo alguna más!

Ei pues si te sale bien a ti, mándanos un vídeo tuyo y lo colgamos!!

Saludos!

Jesus Angel dijo...

Muy buena, gracias y seguid con extremoduro, que ya le tengo ganas a este último disco y yo principiante no me atrevo a sacar nada yo sólo jeje

Un saludo

Anónimo dijo...

la verdad es que extremo usa estos acordes raro y se agradece qe alguien los enseñe, es complicado encontrar buenas partituras de extremo, gracias!!

Francisco valentin dijo...

Muy bueno el tema!! Hay parte 2 o se queda solo aqui? gracias por subirlo junto a las tablaturas llevo ya un tiempo aprendiendomelo y ya lo domino exceptuando unos pequeños detalles y todo gracias a ti!
un saludo

Anónimo dijo...

sorprende bastante ver unos videos de guitarra,en los que se toca extremoduro,te animo a que sigas subiendo videos =) descubri esta pajina el otro día, y desde entonces la miro todos los días pero nunca cambia jeje haber si tienes tiempo y puedes subir canciones conocidas como Jesucrísto García o De Acero, que tienen acordes que probablemente dominarias sin problemas y de seguro que a todos les alegraria verlos jeje un saludo.

Anónimo dijo...

Viendola con el video, la tablatura que habeis subido llega hasta los 6 o 7 minutos, tal vez podríais subir la segunda parte, para poder aprenderla completa...

Publicar un comentario en la entrada

Deja tu nota

 
ir arriba