Rockabilly

Este es un buen ejercicio de guitarra para practicar el slide; espero que os ayude.



e|-------------------------------------------|
B|-------------------------------------------|
G|-------------------------------------------| x4
D|-------0-0---------------------------------|
A|-4/5---------------------------------------|
E|-------------------------------------------|

e|-------------------------------------------|
B|-------------------------------------------|
G|-------------------------------------------|
D|-------------------------------------------|
A|-5-5--3-2----------------------------------|
E|-------------5-----------------------------|


e|-------------------------------------------|
B|-------------------------------------------|
G|-------------------------------------------| x4
D|---------------0-0-------------------------|
A|--------1/2--------------------------------|
E|-3-3------------------3-0------------------|
PM-----|              PM------|

e|-------------------------------------------|
B|-------------------------------------------|
G|---------------0-0-------------------------|
D|--------1/2--------------------------------| x2
A|--3-3----------------3-0-------------------|
E|-------------------------------------------|
PM------|           PM-------|

e|-------------------------------------------|
B|-------------------------------------------|
G|-------------------------------------------| x2
D|---------------0-0-------------------------|
A|--------1/2--------------------------------|
E|-3-3------------------3-0------------------|
PM-----|              PM------|


e|-------------------------------------------|
B|-------------------------------------------|
G|-------------------------------------------| x4
D|-------0-0---------------------------------|
A|-4/5---------------------------------------|
E|-------------------------------------------|

                      G
e|--------------------3----------------------|
B|--------------------3----------------------|
G|--------------------0----------------------|
D|--------------------0----------------------|
A|-5-5--3-2---------2------------------------|
E|-------------5------3----------------------|

0 Responses:

Publicar un comentario en la entrada

Deja tu nota

 
ir arriba