Extremoduro - Tu corazon (Gira 2002)



PARA VER TABLATURA PINCHA EN LEER MAS



 INTRO
------------------------------------------------------------------
e|-------------------------------------------|

B|-------------------------------------------|

G|-------------------------------------------|
                                                             x2
D|-----12--------10---------9----------------|

A|-------------------------------------------|

E|-0---------0----------0--------------------|



e|-------------------------------------------|

B|-------------------------------------------|

G|--------------------------12----11V--------|

D|-------14---13V----------------------------|

A|---0-----------------0---------------------|

E|-------------------------------------------|


e|-------------------------------------------|

B|-------------------------------------------|

G|-------------------------------------------|

D|------14--13/10----9L10----7---------------|

A|--0----------------------------------------|

E|-------------------------------------------|


e|-------------------------------------------|

B|-------------------------------------------|

G|-------------------------------------------|

D|-------14--13V--------17--16V--------------|

A|---0-----------------0---------------------|

E|-------------------------------------------|


e|-------------------------------------------|

B|-------------------------------------------|

G|----17--16/12---11---9/4---4L5L4--2--------|

D|-------------------------------------------|

A|-0-----------------------------------------|

E|-------------------------------------------|


e|-------------------------------------------|

B|-------------------------------------------|

G|----------5----7-----7B--------------------|

D|-----7-------------------------------------|

A|-------------------------------------------|

E|-------------------------------------------|

-------------------------------------------------------------------------


RIFF 1

      Lam  Lam    La8         La8
e|-------------------------------------------|

B|-------------------------------------------|

G|----5-----5--------------------------------|
                                                             X2
D|----7-----7--------7-----------7-----------|

A|-------------------X-----------X-----------|

E|-------------------5-----------5-----------|

------------------------------------------------------------------


e|-------------------------------------------|

B|-------------------------------------------|

G|---7B---/7V-----5V---4L54V-----------------|

D|-------------------------------------------|

A|-------------------------------------------|

E|-------------------------------------------|

---------------------------------------------------------------



              Riff1X3
Tu corazón,        embalsamado como un cebo,


 e|---7-----5-----3---4----------------------|

B|--------------------0----------------------|

G|--9--9--7--7--5--5--4----------------------|

D|-------------------------------------------|

A|-------------------------------------------|

E|-------------------------------------------|

hoy me recuerda un mojicón
veo que me añurgo si no bebo.


--------------------------------------------------------------------
 Lam tapando cuerdas
Tu corazón, mitad de coca y de caballo,


e|-------------------------------------------|

B|-6--5-6-8--6-8-10--8-10-12-----------------|

G|-------------------------------------------|

D|-------------------------------------------|

A|-------------------------------------------|

E|-------------------------------------------|


como te atrevas a decir
que estás de mono, te machaco.
--------------------------------------------------------------
      Lam
Mi corazón, acorazado como un callo
           Re5                       Sol5
aún necesita saber como te pones al ver
          Mi5
cuando se bajan los calzones
 
       Lam
Mi corazón, que lo perdí en un mes de mayo
             Re5                        Sol5
se lo encontraron en un bar donde se moja
       Mi5
con luces rojas.
-----------------------------------------------------------------

       Riff1X3
Tú por hacer, yo por quedarme tan parado

e|---7------5-----3---4----------------------|

B|--------------------0----------------------|

G|--9--9--7--7--5--5--4----------------------|

D|-------------------------------------------|

A|-------------------------------------------|

E|-------------------------------------------| 

y los dos juntos por tener
nuestra cabeza en otro lado.
----------------------------------------------------------------

Lam tapando cuerdas
Tú por hablar, yo por callarme demasiado

e|---7------5-----3--------------------------|

B|--------------------------15B15B-----------|

G|--9--9--7--7--5--5-------------------------|

D|-------------------------------------------|

A|-------------------------------------------|

E|-------------------------------------------|  

tú por robarme esa canción
que ya te había regalado.
-----------------------------------------------------------------

        Lam
Mi corazón, que tú sabrás donde lo pones
        Re5                        Sol5
pero tienes que entender, con tanto hacerme correr
           Mi5
me estas tocando los cojones.

       Lam
Mi corazón, como una lata de cerveza
          Re5                   Sol5
que te la bebes y al final le das patadas sin pensar
         Mi5
que me desquicias la cabeza.

---------------------------------------------------------------------

Riff2

e|-------------------------------------------|

B|-------------------------------------------|

G|--------------------------------7----------|

D|----5------------------5--------7----------|

A|--7---7--5/7V----------5--------5----------|

E|-----------------------3-------------------|

                                                                X2


e|-------------------------------------------|

B|-------------------------------------------|

G|-------------------------------------------|

D|----5-------------------3-4-5-6------------|

A|--7---7--5/7V--5--------3-4-5-6------------|

E|-------------------------------------------|
-----------------------------------------------------------------

Riff3

e|-------------------------------------------|

B|-------------------------------------------|

G|----------------------------------9--------|

D|----7---------------------7-------9--------|

A|--9---9-7/9V--7-----------7-------7--------|

E|--------------------------5----------------|

                                                              X2
e|-------------------------------------------|

B|-------------------------------------------|

G|-------------------------------------------|

D|----7-------------------5-6-7-8------------|

A|--9---9-7/9V------------5-6-7-8------------|

E|-------------------------------------------|

----------------------------------------------------------------

       Si5
No encuentro otra razón
    Re5
estaba tan feliz
      Mi5
me acuerdo de su amor.

e|-------------------------------------------|

B|-------------------------------------------|

G|-------------------------------------------|

D|-------------------------------------------|

A|---9---8---7--------5V---------------------|

E|-------------------------------------------|

    Si5
Vendí mi porvenir
    Re5                     Mi5 Sol5
cogiendo moscas para tí.
    Si5
No valgo para estar
    Re5
metido en un puré
    Mi5
me gusta mi sabor.

e|-------------------------------------------|

B|-------------------------------------------|

G|-------------------------------------------|

D|-------------------------------------------|

A|---9---8---7--------5V---------------------|

E|-------------------------------------------|
Si5       Re5           Mi5  Sol5
Ando loco por la calle.


Riff2 + Riff3


    Si5
Vendí mi porvenir
    Re5                      Mi5 Sol5
cogiendo moscas para tí.
    Si5
No valgo para estar
    Re5
metido en un puré
    Mi5
me gusta mi sabor.

e|-------------------------------------------|

B|-------------------------------------------|

G|-------------------------------------------|

D|-------------------------------------------|

A|---9---8---7--------5V---------------------|

E|-------------------------------------------|



Si5       Re5           Mi5  Sol5
Ando loco por la calle.


Riff2+

e|-------------------------------------------|

B|-------------------------------------------|

G|----------------------------------9--------|

D|----7---------------------7-------9--------|

A|--9---9-7/9V--7-----------7-------7--------|

E|--------------------------5----------------|


e|-------------------------------------------|

B|-------------------------------------------|

G|---------------------11-10-9-7-------------|

D|----7----------------11-10-9-7-------------|

A|--9---9-7/9V--7----------------------------|

E|-------------------------------------------|


e|-------------------------------------------|

B|-------------------------------------------|

G|----------------------------------9--------|

D|----7---------------------7-------9--------|

A|--9---9-7/9V--7-----------7-------7--------|

E|--------------------------5----------------|


e|-------------------------------------------|

B|-------------------------------------------|

G|---------------------11-10-9-7-------------|

D|----7----------------11-10-9-7-------------|

A|--9---9-7/9V--7----------------------------|

E|-------------------------------------------|


e|-------------------------------------------|

B|-------------------------------------------|

G|----11-10-9-7------------------------------|

D|----11-10-9-7--------------9---------------|

A|---------------------------9---------------|

E|---------------------------7---------------|


L=ligado

V=vibrato

/=slide

B=bending

8 Responses:

Manolinvicio dijo...

Muy bueno, si señor

Jesus Angel dijo...

Enhorabuena, seguid así y gracias por la ayuda ;)

En cuanto termine con los exámenes me pongo a sacarla.

Un saludo!

María José dijo...

no tengo ni idea de guitarra, pero teneis un mérito!!! enhorabuena por la idea tan original

saludos

ana dijo...

Yo si que no tengo ni puñetera idea de tocar la guitarra, lo aviso, pero la música me encantaaaaaaa, y en eso soy super rara porque me gusta casi de todo.

Vendre de vez en cuando a oir. Y nunca se sabe,lo mismo me da la chaladura y me animo ja ja ja ja ja ja.

Un besitooo.

≈ Estrellita ≈ dijo...

_____$$$$$$$$$$$
_____$$$$$$$$$$$$$$$
___$$$$$$$$$$$$$$$$$$
__$$$$$$$$$$$$$$$$$$$$
_$$$$$$$$$$$$$$$$$$$$$$
$$$$$(¯`v´¯)$$$$$$$$$$$$
$$$$(¯`(●)´¯)$$$$$$$$$$$$
$$$$$(_.^._)$$$$$$$__$$$$
$$$$$$$$$$$$$$$$____$$$$
$$$$$$$$_____________$$$
$$$$__________________$$
$$$$__$$$$______$$$$__$
$$$$___$$________$$___$
$$$$__________________$
$$$$$_________________$
$$$$$____$$$__$$$____$(¯`v´¯)
_$$$$$____$$$$$$____$(¯`(●)´¯)
__$$$$$____$$$$____$__(_.^._)
___$$$$$$________$$(¯`v´¯)
___$$$$$$$$____$$_(¯`(●)´¯)
___$$$$$$$$____$___(_.^._)
__$$$$$$$$$____$_____(¯`v´¯)
_$$$$$$$$$_____$____(¯`(●)´¯)
$$$$$$$$$$_____$$____(_.^._)
$$$____$$$______$$$$$___$$$$
$$$_____$$______$$__$$__$$$$
$$$_____$$$_____$$___$_$$__$
_$$_____$$$$____$$___$_$___$
__$_____$$$$$___$$$__$_$__$
__$_____$$$$$$$_$$$$_$_$__$
__$_____$$$$$$$$$$$$$$_$__$
__$__ ___$$$$$$$$$$$$$$_$__$
__$_____$$$$$$$$$$$$_$_$__$
__$_____$$$$$$$$$$$__$_$__$
___$_____$$$$$$$$$$__$$___$
____$_____$$$$$$$$$__$$___$
_____$_____$$$$$$$$______$
______$_____$$$$$$$_____$
___$$$$$$$$______$$$$$$$$§
_$$$$$$$$$$$$__$$$$§§(¯`v´¯)$
$$$$$$$$$$$$$$$$$$$$(¯`(●)´¯)$
$$$$$$$$$$$$$$$$$$$$$(_.^._)$$
$$$$$$$$$$$$$$$$$(¯`v´¯)$$$$$
_$$$$$$$$$$$$$$$(¯`(●)´¯)$$$
___$$$$$$$$$$$$$$(_.^._)$$
______$$$$$$(¯`v´¯)$$$$$
________$$$(¯`(●)´¯)$$
___________$(_.^._)$
____________$$$$$$
______________$$

Que disfrutes del fin de semana
te dejo un abrasito y gracias por
tu compañia en mi blog buenas noches.

Basurero Usurero dijo...

Interesante tu blog para neófitos, bien ahí; te invito a participar en mi nuevo blog musical, espero que aprecies la música que pondré. Suerte.

Capitán Clostridium dijo...

Muy curioso el blog musical de acordes. Siempre quise acabar de aprender a tocar la guitarra. De pequeño di clases, pero mis dedos eran muy torpes y mi paciencia más torpe aún.
Un pena, porque si hay algo que me gusta es la música.

桂綸鎂Diana dijo...

I love it! Very creative!That's actually really cool!
天空之城裡看馬達加斯加激動之餘與女友做愛徵信社隨意自拍此時跟徵信社人員在聊天室裡討論情色內容的正妹牆如何變成AV女優可是徵信社將我們色情照片放在成人圖片區的這部落格隨意的舉動被徵信社翻拍成a片異界裡的部落格徵信社人員做徵信社經營的ut聊天室人氣爆增的人氣部落格有空來參觀
Thanks!

Publicar un comentario en la entrada

Deja tu nota

 
ir arriba