Antes de que cuente diez - Fito y fitipaldis

PARA VER TABLATURA PINCHA EN LEER MAS
Intro

e|-------------------------------------------|

B|--5L7L5------------------------------------|

G|---------6---------------------------------| X3

D|-------------7-----------------------------|

A|-------------------------------------------|

E|-------------------------------------------|




e|-------------------------------------------|

B|--5L7L5------------------------------------|

G|---------6---------------------------------|

D|-------------7--6--------------------------|

A|-------------------------------------------|

E|-------------------------------------------|


---------F#m
Puedo escribir y no disimular

----------Mi
es la ventaja de irse haciendo viejo

---------Sim
no tengo nada para impresionar

----------La Mi
ni por fuera ni por dentro.




-----------Fa#m
La noche en vela va cruzando el mar

----------Mi
porque los sueños viajan con el viento

-----------Sim
y en mi ventana sopla en el cristal

---------La Mi
mira a ver si estoy despierto.


Fa#5 La5 Mi5(4cuerda) Si5




------Fa#
Me perdí en un cruce de palabras

--------La
me anotaron mal la dirección

--------Mi
ya grabé mi nombre en una bala

--------------Re
ya probé la carne de cañón



--------Fa#
ya lo tengo todo controlado

-------La
y alguien dijo no, no, no, no, no

-------Mi
que ahora viene el viento de otro lado

--------Re
déjame el timón

-------Mi
y alguien dijo no, no, no


e|-------------------------------------------|

B|-------------------------------------------|

G|---4L6L4----------------6V-----------------| X4

D|-----------7--4-----7----------------------|

A|-------------------------------------------|

E|-------------------------------------------|



e|-------------------------------------------|

B|--5L7L5--------------7V--------------------|

G|---------6-------6-------------------------| X3

D|-------------7-----------------------------|

A|-------------------------------------------|

E|-------------------------------------------|



e|-------------------------------------------|

B|--5L7L5------------------------------------|

G|---------6---------------------------------|

D|-------------7-----------------------------|

A|-------------------------------------------|

E|-------------------------------------------|




------------Fa#m
Lo que no llegará al final

------------La
serán mis pasos, no el camino.

----------Mi
No ves que siempre vas detrás

----------Re
cuando persigues al destino.



-----------Fa#m
Siempre es la mano y no el puñal

-----------La
nunca es lo que pudo haber sido

---------Mi
no es porque digas la verdad

-----------Re
es porque nunca me has mentido.




-----------La
No voy a sentirme mal

--------------Mi
si algo no me sale bien

----------------Fa#m
he aprendido a derrapar

------------------Re
y a chocar con la pared


------------La
que la vida se nos va

--------------Mi
como el humo de ese tren

----------------Fa#m
como un beso en un portal

--------------Re
antes de que cuente 10.



-----------La
Y no volveré a sentirme extraño

------------Mi
aunque no me llegue a conocer

---------Fa#m
y no volveré a quererte tanto

--------------------Re
y no volveré a dejarte de querer



----------La
dejé de volar me hundí en el barro

----------Mi
y entre tanto barro me encontré

--------Fa#m
algo de calor sin tus abrazos

-----------Re
ahora sé que nunca volveré.



e|-------------------------------------------|

B|-------------------------------------------|

G|---4L6L4----------------6V-----------------| X4

D|-----------7--4-----7----------------------|

A|-------------------------------------------|

E|-------------------------------------------|



e|-------------------------------------------|

B|--5L7L5--------------7V--------------------|

G|---------6-------6-------------------------| X3

D|-------------7-----------------------------|

A|-------------------------------------------|

E|-------------------------------------------|



e|-------------------------------------------|

B|--5L7L5----------5L7L5--------5L7L5--------|

G|---------6--------------6------------6-----|

D|-------------7-------------7------------7--|

A|-------------------------------------------|

E|-------------------------------------------|



V= vibrato

L= ligado

13 Responses:

Capitán Clostridium dijo...

Gracias por la actualización.

XDG뮧ØnXD dijo...

Hola amigo.. =) habia algo de tiempo sin actualizar :s pero muchas gracias :)

Ya revise el ejercicio anterior y o estare practicando :P

Pd: Podemos hacer algun intercambio de links o banners?? =)

Te he enlazado en mi blog:

http://guitarras-y-acordes.blogspot.com/

Saludos..

Tomaguitarra dijo...

Hola XDG뮧ØnXD , gracias por tu comentario, no he actualizado muy a menudo porque no tengo mucho tiempo pero ahora empezare otra vez. Ya estas enlazado. Saludos.
Por cierto no te funcionan los comentarios en tu pagina

XDG뮧ØnXD dijo...

Mmmm que raro.. ami si me hacia los comentarios :S..

Pero muchas gracias de todas maneras =)

Ya le he cambiado la manera de como dejar comentarios... aver si ahora sirve .. :p

Ya vi tu enlace .. Saludoss

桂綸鎂Diana dijo...

I love it! Very creative!That's actually really cool!
天空之城裡看馬達加斯加激動之餘與女友做愛徵信社隨意自拍此時跟徵信社人員在聊天室裡討論情色內容的正妹牆如何變成AV女優可是徵信社將我們色情照片放在成人圖片區的這部落格隨意的舉動被徵信社翻拍成a片異界裡的部落格徵信社人員做徵信社經營的ut聊天室人氣爆增的人氣部落格有空來參觀
Thanks!

Anónimo dijo...

cuales son los ligados?

porfa (:

XDG뮧ØnXD dijo...

Hola anonimo :P

Los ligados son las L que ves en la tablatura.. puedes hacer un hammer o un bending :) porque no se especifica cual exactamente jejeje :P

Prueba con ambos y nos dices ;)

Tomaguitarra dijo...

Gracias por contestar XDG뮧ØnXD ( te voy a tener que meter en plantilla XD).
Los Lgados, (L), son Hammer on (ligado martilleando con el dedo despues de hacer sonar la nota) y Pull off (pellizcar la cuerda despues de hacer sonar la nota)
Por eso los puedes llamar Hammer on, pull off o ligado. Segun este, puede ser ascendente (7L5) o descendente (5L7).

XDG뮧ØnXD dijo...

Jejeje trankilo man ;)

pero oye... yo tendria la misma duda que anonimo... porque cuando pones Ligados.. pueden ser ascendentes o descendente como dices tu :P tendrias que especificar y poner por ejemplo:

7h8 (Hammer Ascendente)
7b8 (Bending)
8r7 (es como un bending pero en vez de estirar suelta la cuerda)

Saludos ;) ya esperaremos nuevas actualizaciones :P

Tomaguitarra dijo...

Ke tal XDG뮧ØnXD, jejejejeje (me cuesta aprenderme tu nombre)

Parece un poco lioso, pero creo que se entiende mejor sin tanto nombre anglosajon.

Cuando digo ligado pueden ser dos:

Ligado ascendente: 5L7

Ligado descendente: 7L5

Simplemente con solo mirar si tienes que ir del 5 al 7 o del 7 al 5 sabes si es descendente o ascendente.
Sin embargo con el bending lo que haces es subir la entonacion de la cuerda sin hacer ningun ligado. Solamente estirando.

De todos modos no se me da muy bien esto de explicar.

Intentare hacer algun video a ver si se me ocurre algo y asi de paso actualizo un poco :P. Que por una cosa o por otra ando un poco ligado, digo liado xD.

Saludos XDG뮧ØnXD nos vemos por aqui o por alli http://guitarras-y-acordes.blogspot.com/

jorge dijo...

falta un solo de saxo. lo dejo por si alguien lo quiere.
e|-------------------------------------------|

B|--4-------2-----------2----4----6-----4-2-4|

G|------------------3------------------------| X3

D|-------------------------------------------|

A|-------------------------------------------|

E|-------------------------------------------|



e|-------------------------------------------|

B|----6-------4-------2-----------------2----|

G|-----------------------------3-------------| X3

D|-------------------------------------------|

A|-------------------------------------------|

E|-------------------------------------------|



e|-------------------------------------------|

B|-------------------------------------------|

G|------5-------3-------1--------------------|

D|-------------------------------------------|

A|-------------------------------------------|

E|-------------------------------------------|

todo x3

*Jaco* dijo...

Me estoy hartando de buscar una tablatura mas o menos decente para el último solo de la canción, donde acaba, pero esque no encuentro por ningun lado.

Alguien tiene algun sitio donde esté ???

P.D: si consigo sacar una buena tablatura, os la mando ;)

Anónimo dijo...

Q brutos Si en you tube esta mejor explicado XD

Publicar un comentario

Deja tu nota

 
ir arriba