Caminar cuesta arriba - Platero y tu

PARA VER TABLATURA PINCHA EN LEER MAS


-------------------------------------------------------------------
 Tocar esto cuando suene La*

e|-------------------------------------------|

B|-------------------------------------------|

G|-------------------------------------------|
                                                             X2
D|---2--2----4---5---------------------------|

A|---0--0----0---0---------------------------|

E|-------------------------------------------|

-------------------------------------------------------------------
 Tocar esto cuando suene Re*

e|-------------------------------------------|

B|-------------------------------------------|

G|---2--2---4----5---------------------------|
                                                           X2
D|---0--0---0----0---------------------------|

A|-------------------------------------------|

E|-------------------------------------------|

-------------------------------------------------------------------
 Tocar esto cuando suene Mi*

e|-------------------------------------------|

B|-------------------------------------------|

G|-------------------------------------------|
                                                               X2
D|-------------------------------------------|

A|---2---2------4---5------------------------|

E|---0---0------0---0-------------------------|

-------------------------------------------------------------------
  La*
Mamá ha estado bebiendo otra vez.

  Re*
No sabe caminar cuesta arriba.

    Mi*                                          La*
En casa hay un tipo con barriga y yo no sé quien es.



   La*
Cada seis meses tengo un nuevo papá

    Re*
de esos que atizan sin motivo ninguno;

   Mi*                                            La*
de esos que apestan a colilla de puro y dicen:" Terry me va".





Fa#5              Re5
Sopla de más, viene de atrás.

        La5                         Mi5
Cada vez que no hay alpiste se me pone a llorar.


Fa#5               Re5
Sopla de más, viene de atrás.

       La5                            Mi5         
Sus zapatos ya eran viejos en la fiesta de Blas.




       Fa#5              Si5
El ya se fue, debe volver...

         Re5                    Fa#5
¡Hágame usted un favor, señor juez!

         Fa#5           Si5
Papá se fue, vive en Jerez....

         Re5         Fa#5
si le cogen jamas le veré.




 La*
Papá se fue a vivir a Jerez;

  Re*
me han dado su teléfono móvil.

Mi*                                     La*
Dicen que si le coge la poli jamas le veré.





La*
Mamá ha estado bebiendo otra vez.

Re*
Se oye en el barrio que no está de moda

Mi                                          La*
llevar botellas en la cazadora y llorar por llorar.




Fa#5                    Re5
Sopla de más, viene de atrás.

       La5                        Mi5
Sus zapatos ya eran viejos en la fiesta de Blas.




       Fa#5          Si5
El ya se fue, debe volver...

           Re5                    Fa#5
¡Hágame usted un favor, señor juez!

         Fa#5          Si5
Papá se fue, vive en Jerez....

         Re5            Fa#5
si le cogen jamas le veré


0 Responses:

Publicar un comentario en la entrada

Deja tu nota

 
ir arriba